Легкие песни на гитаре. Калинка. Табулатура мелодии

Легкие песни на гитаре. Калинка. Табулатура мелодииВсегда считалось, что это народная песня. Да наверно по другому и может быть, ведь это музыкальный символ нашей страны, известный всему миру. Но наши историки не сидят сложа руки перерывая различные архивные материалы. И вот пожалуйста – у нашей любимой народной песни «Калинка» нашелся реальный автор.

По некоторым сведениям музыка и слова были написаны саратовским любителем народной музыки И.П. Ларионовым для спектакля, а после попала в репертуар хора народной песни Агренева-Славянского.

Известны ещё и другие песни с тем же припевом. Наиболее популярна из них «Ой вставала я ранешенько», у которой не нашлось пока автора и будем считать её народной.

Мировую известность Калинке принесло исполнение её Хором песни Советской Армии под управлением А.Александрова. Она стала практически их визитной карточкой. А солиста хора запевавшего песню называли Мистер Калинка.

А мы скажем спасибо Ивану Петровичу Ларионову, что написал не много аккордов и яркую запоминающуюся мелодию из пяти нот.
Давайте её разучим.

Напоминаю: с начала строки пишется номер струны, а дальше номера ладов, на которых нужно её прижимать, чтобы извлечь звук. Ноль – открытая, не прижатая струна.
Табулатура мелодии припева:

1-я ||-0--------------------------------------
2-я ||----3---0---1--3---0---1---3---1--0----
3-я ||-------------------------------------2-
      Ка-лин-ка   ка-лин-ка  ка-лин-ка мо-я
1-я ||-0-0--------------------------------------5--3-
2-я ||-------3--1-0---1--3---0--1---3--1--0---------
3-я ||---------------------------------------2------
    В са-ду  я-го-да  ма-лин-ка ма-лин-ка мо-я  а-ах

Теперь для полноты звучания добавим бас на ударные слоги. Звуки, записанные друг под другом исполняются одновременно:

1-|-0-------------------------------0-0--------------------------------5-3-
2-|---3--0--1--3--0--1--3--1--0---------3--1-0--1--3--0--1--3--1--0-------
3-|------------------------------2-----------------------------------2----
4-|-----------------------------------------------------------------------
5-|------------------------------0-----------------------------------0----
6-|---0--------0--------0---------------0----------0--------0-------------

А для самых активных предлагаю разучить табулатуру мелодии припева с басом.:

1-|-0--3--1--0---------0--3--1--0--------------------------------------
2-|------------3--1---------------3--1-----------0--3--1--0------------
3-|------------------0------------------0---2--2------------2--0--0--0-
4-|-----------------------------------------3-------0------------------
5-|-3-------------3----3-------------3---------------------------------
6-|-------3------------------3---------------------------------3-----3-

И повтор с другим окончанием:

1-|-0--3--1--0---------0--3--1--0------------------------------3--1--0-
2-|------------3--1---------------3--1-----------0--3--1--0------------
3-|-----------------0-------------------0---2--2-------------2---------
4-|-----------------------------------------3-------0------------------
5-|-3-------------3----3-------------3---------------------------------
6-|-------3------------------3---------------------------------3-----0-

Легкие песни на гитаре. Калинка. Табулатура мелодииНадеюсь, вам не составит большого труда разучить эту замечательную русскую, несмотря ни на что, народную песню и порадовать себя и своих друзей.

Понравилась статья? Поделиться с друзьями:
Комментариев: 3
  1. Рита

    Все правильно, лучше начинать с простого и знакомого, лучше запоминается.

  2. Галина

    Люблю русские народные песни. Первый раз слышу ,что у Калинки есть автор.Спасибо ему за прекрасную мелодию Калинки. Исполнение хором песни Советской Армии неповторимо!Бдагодарю за аккорды!

  3. Иван

    Хорошая русская песня.С удовольствием слушаю

Добавить комментарий

;-) :| :x :twisted: :smile: :shock: :sad: :roll: :razz: :oops: :o :mrgreen: :lol: :idea: :grin: :evil: :cry: :cool: :arrow: :???: :?: :!: